Guitar-Wav.com


Riff 50: Voicings - Here I show a couple familiar licks that are nice examples of some different voicings of some basic chords. The first is a Doobie Bros lick. The second is from Ozzy's Crazy Train. Referring back to my lesson on scales and the CAGED system (page 2). You'll see in "Crazy Train" that the A maj used here is the "E" voicing and the E maj uses the "C" voicing pattern.

   A  G  D  A
|----------------|
|--5--3--3--2----|
|--6--4--2--2----|
|--7--5--4--2----|
|--0--0--0--0----|
|----------------|
doobie.wav

   A  E  D  A
|----------------|
|--5--5--3--2----|
|--6--4--2--2----|
|--7--6--4--2----|
|--0--0--0--0----|
|----------------|
crazy.wav




Riff 51: Here's a riff that will help you find your way around the fretboard. The first run is E-Eb-D, B-Bb-A repeated down the neck. I then throw a similar run going back up the neck starting with the G. Riff51 goes through it slow, and 51A is a little faster. I'm using an autowah on this run.

|-12-11-10--------------------------------------------------------------------------------|
|----------12-11-10-------------------------------------------------------------------8---|
|-------------------9-8-7-------------------------------------------------------7-8-9---9-|
|-------------------------9-8-7-------------------------------------5-6-7-7-8-9-----------|
|-------------------------------7-6-5-------------------------5-6-7-----------------------|
|-------------------------------------7-6-5-3b4-0-3-4-5-5-6-7-----------------------------|
riff51.wav (157Kbs)    riff51A.wav (60Kbs)




Riff 52: Time for a challenge. Here's a sweet little melody that will really challenge your fingers and wrist. Switching between these two chords is pretty tough as well. Good luck !

|----------0---------------0------------------------0---------------0------------|
|--------0---0-----------0---0--------------------0---0-----------0---0----------|
|------8-------8-------8-------8----------------3-------3-------3-------3--------|
|----6-----------6---6-----------6------------4-----------4---4-----------4------|
|--4---------------4---------------4 REPEAT-4---------------4---------------4----|
|--------------------------------------------------------------------------------|
riff52.wav (160Kbs)




Riff 53: A retro fuzz/phase riff. This is played in C#, it's based on the normal minor pentatonic, but with an extra note thrown in. Instead of playing the normal C# E F# pentatonic run, I'm playing C# F F#. Jimmy Page would use this technique in some of the old Zep stuff.

|----------------------------------------|
|---------------------------------12b13--|
|-----10---11-10-------10---11-10--------|
|--11----9-------11-11----9--------------|
|----------------------------------------|
|----------------------------------------|
retro.wav (150Kbs)




Riff 54: This pentatonic riff makes use of the open E and A strings in the key of F#. I'm just using the open A here, but there's a million variations and you can throw the open low E nicely. You'll notice that I vary from the "standard" F# minor pentatonic scale (F#-A-B-C#-E). I start off on the Bb sliding up to the B. I also roll in the C between the C# and B on the way down the riff. In the wav, I've played the run slow at first so you can follow along, then full speed.

|-----------------------------------------------------------|
|-----------------------------------------------------------|
|--4-/5-/4-2-4-2---2----------------------------------------|
|----------------4---4-2---2--------------------------------|
|------------------------4---4-3-2-0-2-0-2b3-2-0-2-0--------|
|----------------------------------------------------2-2----|
riff54.wav (95Kbs)




Riff 55: Neat little riff here I picked up from some old EVH.

|-----------------------------------------------------|
|----------4-------7-6-4---------4-------------4------|
|----------4-------6-6-4---------4-------------4------|
|--6-4-6-6---6-4-6-------6-4-6-6---6-4-6---------6----|
|----------------------------------------4-5-6--------|
|-----------------------------------------------------|
riff55.wav (105Kbs)




Riff 56: Here's a riff I pulled from Shane Pacey of The Bondi Cigars from their "Bad Weather Blues" cd. I don't play it exactly like Shane, but you get the idea - it's a cool blues riff.

|---------------------5---------8-5----------------------------|
|-----------------5---5-7-7-5---7-5--8-5---------5---7-7-5-----|
|--7b8r-5-7-5-----5-6---7-7-5-6----------7-5-----5-6-7-7-5-6---|
|-------------7-7----------------------------7-7---------------|
|--------------------------------------------------------------|
|--------------------------------------------------------------|
Shane1.wav (144Kbs)




Riff 57: Some old Rolling Stones to strengthen you hand. This is a really simple song - "Jumpin Jack Flash", but will make your hand hurt like heck if your you're not accustomed to playing barre chords regularly. For the folks trying to get some strength in their fretting hand - try playing this for a little while...you'll soon feel the results. I've broken the song into 2 wav files.

   B Maj
|--7-7-------------------7-7---|   |--7--7-----------5--7--7--|
|--7-7-----7-----7-----7-7-7---|   |--7--7--9--9--7--5--7--7--|
|--8-8-----7-----7-----7-8-8---|   |--8--8--9--9--7--6--8--8--|
|--9-9-----7-----7-----7-9-9---|   |--9--9--9--9--7--7--9--9--|
|--9-9-7-9---7-9---7-9---9-9---|   |--9--9--7--7--5--7--9--9--|
|--7-7-------------------7-7---|   |--7--7-----------5--7--7--|
JumpinJack1.wav (100Kbs)            JumpinJack2.wav




Riff 58: Neat little pentatonic lick in G.

|--------------------------------------------------------|
|--------------------------------------------------------|
|--3---------------------------------3-------------------|
|----5-3----3-----------------3---3----5-3---3-----------|
|--------5----5-3-------3-4-5---5----------5---5-3-------|
|-----------------6-3-6----------------------------6-3---|
Riff58.wav (57Kbs)




Riff 59: Fast pentatonic riff to impress your friends. Trick here is the pull offs. Practice pulling your 4th finger off so that the bottom note (held with your 1st finger) comes out. As shown in my tab - pick the 21 and pull off to the 17 - may be a little difficult at first. Bend the 19's and 20's with your 2nd finger while holding the 17's with your 1st finger.

|--17-------17-------17-------17-21p17-------17-21p17-------17-21p17---|
|-----20b21----20b21----20b21----------20b21----------20b21------------|
|----------------------------------------------------------------------|
|----------------------------------------------------------------------|
|----------------------------------------------------------------------|
|----------------------------------------------------------------------|


|----------------------------------------------------------------------|
|--------17-21p17--------17-21p17-------17-21p17-------17-21p17--------|
|--19b20----------19b20-----------19b20----------19b20-----------------|
|----------------------------------------------------------------------|
|----------------------------------------------------------------------|
|----------------------------------------------------------------------|
Riff59.wav (102Kbs)


¥ Riffs Page 7 ¥




Tablature Legend
----------------
 h   - hammer-on
 p   - pull-off
 b   - bend
 pb  - pre-bend
 r   - bend release (if no number after the r, then release immediately)
 / \  - slide into or out of
 ~   - vibrato
 =   - hold bend; also acts as connecting device for hammers/pulls

** Generated using Power Tab Editor by Brad Larsen: The Official Power Tab Web Site
 
 
 
 
 
 

All files copyright © guitar-wav.com 2003-2010
contact email admin@guitar-wav.com