Guitar-Wav.com


Riff 60: Here's a good basic metal piece from Corrosion of Conformity - Deliverance CD. I've dropped tuned to D flat on this, and put a drum backing track on it because it really sounded like crap by itself...

|--First Part------------------------------------|
|------------------------------------------------|
|------------------------------------------------|
|------------------------------------------------|
|--------------7---------------------------------|
|--0-0-0-3p0-0---0-0-6-5-0-0-0-3p0-0-0--REPEAT---|


|-Second Part------------------------------------|
|------------------------------------------------|
|------------------------------------------------|
|--------------------5---------------------------|
|--5-7-7---5-7-7-5-7---5-7-7---5-7-7-5-----------|
|--------7-------------------7---------7-6-5-3---|


|-Second Part Continued------------------------------------------------|
|----------------------------------------------------------------------|
|----------------------------------------------------------------------|
|--------------------5-------------7b8-7-5-7-5-------------------------|
|--5-7-7---5-7-7-5-7---5-7-7---5-7-7-5---------7-----------------------|
|--------7-------------------7--------------------Back to First Part---|


corrosion.mp3 (821Kbs)




Riff 61: While I have the guitar dropped tuned to Db, I'll throw some tracks down in the Corrosion flavor. These are pretty simple riffs, but show examples of different runs you can come up with using the same basic notes.

|---------------------------------------------------------------------------|
|---------------------------------------------------------------------------|
|---------------------------------------------------------------------------|
|------------5--------------5--------------5--------------------------------|
|--------5-7---7--------5-7---7--------5-7---7-7-5---7-5---7-5---7-5--------|
|-0-0-/7---------0-0-/7---------0-0-/7-------------7-----7-----7-----7-0----|
one.mp3 (206Kbs)

|---------------------------------------------------------------------------|
|---------------------------------------------------------------------------|
|---------------------------------------------------------------------------|
|-------------5---------------------------5---------------------------------|
|-----7---5-7-------7---5---------7---5-7---7-5---7-5---7-5---7-5-----------|
|-0-0---7-------0-0---7---7-3-0-0---7-----------7-----7-----7-----7-0-------|
two.mp3 (188Kbs)

|---------------------------------------------------------------------------|
|---------------------------------------------------------------------------|
|---------------------------------------------------------------------------|
|-------5---------------5-------------------5---------------5---------------|
|-5-7-7---5-7-7---5-7-7---7-5---7-5---5-7-7---5-7-7---5-7-7---7-5---7-5-----|
|---------------3-------------7-----7---------------3-------------7-----7-0-|
three.mp3 (196Kbs)




Riff 62: Here's a lesson in mind and finger dexterity. This is a Diamond Darrell lick from Pantera's Great Southern Trendkill CD - Hell's Wrath. The tab may look simple...but it's deceiving - you have to let your finger memory play this one. If you think about what you're playing too much, you'll screw up the string skipping every time. I've shown some "p"s on the top tab to show you what notes are picked -- alot of these notes you just need to play "legato". This is also drop D, and I'm running through a BOSS MT-2 for that nasty grind.

|-p-p---p-p---p-p-p-----p-p------p-p---p-p---p-p-------p-p-p------|
|-----------------------------------------------------------------|
|-----------------------0------------------------------0---2-3----|
|---2-0-2-------0---------0-1-2----2-0-2-------0---------2--------|
|---------1-2-----0-1-2------------------1-2-----0-1-2------------|
|-0-----------0------------------0-----------0--------------------|

|--con't----------------------------------------------------------|
|-----------------------------------------------------------------|
|-----------------------0------------------------------0---3-2----|
|---2-0-2-------0---------0-1-2----2-0-2-------0---------2--------|
|---------1-2-----0-1-2------------------1-2-----0-1-2------------|
|-0-----------0------------------0-----------0-----------------0--|
hellswrath.mp3 (246Kbs)




Riff 63: A simple riff making the E and A string "squeal" a little. Key here is to bend the E and A string with your middle finger while you pick the notes.

|---------------------------|
|---------------------------|
|---------------------------|
|--2-2-----2------------2---|
|--0-0-----0-3b4-r0-----0---|
|------3b4----------3b4-----|
riff63.mp3 (96Kbs)



Riff 64: A little country rock lick. This is played over my countryfloyd backing track - which is just a Gmaj-Dmaj-Cmaj chord progression picked out.

|------3-----5----7------10------12------14-----12-----10----8----7---5---3-|
|---------------------------------------------------------------------------|
|---/4----/5---/7----/11-----/12-----/14----/12-----10-----9---/7---5---4---|
|---------------------------------------------------------------------------|
|---------------------------------------------------------------------------|
|---------------------------------------------------------------------------|
Riff64.mp3 (288Kbs)




Riff 65: This is a variation to a metal lick I've shown previously. This is played over my Metal63 backing track. You just pretty much hammer the hell out of the A and F with your pinky (B and G string 10th fret) while keeping your first finger barred across the G-B-A strings 7th fret.

|-------------------------------------------------------------|
|--10-7----7-10-7-10-7----7-10-7----7-10-7-10----7-10----7----|
|-------10-------------10--------10-----------10------10------|
|-------------------------------------------------------------|
|-------------------------------------------------------------|
|-------------------------------------------------------------|
riff65.mp3 (129Kbs)


Riff 66: This is a ZZ Top style lick The key is in A. The tab might not be perfect, but you get the idea.

|------------------------------------------------------------------------------|
|------8---8---8----8---8---8---8---8---8----8---8--10-----------------REPEAT--|
|---/9---9---9---/9---9---9---/9---9---9--/9---9-------7b8r5---5---5-----------|
|------------------------------------------------------------7---7-------------|
|------------------------------------------------------------------------------|
|------------------------------------------------------------------------------|
riff66.mp3 (729Kbs)



Tablature Legend
----------------
 h   - hammer-on
 p   - pull-off
 b   - bend
 pb  - pre-bend
 r   - bend release (if no number after the r, then release immediately)
 / \  - slide into or out of
 ~   - vibrato
 =   - hold bend; also acts as connecting device for hammers/pulls

** Generated using Power Tab Editor by Brad Larsen: The Official Power Tab Web Site
 
 

Back to Guitar-Wav.com
 
 
 
 

All files copyright © guitar-wav.com 2003-2010
contact email admin@guitar-wav.com